Red Hot Chili Peppers - Californication (var.29) Bass tab download free or play online

Bass tab for Californication (var.29) by Red Hot Chili Peppers free download and read or play online: file .txt, 7.08 kb has 506 views and 0 downloads.

Download bass tab "Californication (var.29)" (Red Hot Chili Peppers)

Red Hot Chili Peppers Band name
Californication Song name
Bass tabs Tab type
7.08 kb File size
.TXT File type
506 views
0 downloads
 
Are you robot?

Californication (var.29) bass tab read and play online

                    Intro

G|-----9-9-9-7h9---------7-7----|-----9-9-9-7h9--------10-10-7-|
D|-7-7-----------10----------10-|-7-7-----------10-------------|
A|-------------------8-8--------|------------------8-8---------|
E|------------------------------|------------------------------|

Verse(0.10)

G|-----9-9-9-7h9---------7-7----|-----9-9-9-7h9--------10-10-7-|
D|-7-7-----------10----------10-|--7-7----------10-------------|
A|-------------------8-8--------|------------------8-8---------|
E|------------------------------|------------------------------|X2

G|--------------------|
D|--------------------|
A|-3-3------------5-5-|
E|------3-3--1-1------|

G|-----9-9-9-7h9---------7-7----|-----9-9-9-7h9--------10-10-7-|
D|-7-7-----------10----------10-|-7-7-----------10-------------|
A|-------------------8-8--------|------------------8-8---------|
E|------------------------------|------------------------------|X2

G|--------------------|
D|--------------------|
A|-3-3------------5-5-|
E|------3-3--1-1------|

Prechorus(1.01)

G|------------------|--------------------|------------------|-------7/9-7------|
D|-7-777-77-77-9-10-|------------10-9----|-7-777-77-77-9-10-|-------------10---|
A|------------------|-8-888-88-8------10-|------------------|-8-888----------8-|
E|------------------|--------------------|------------------|------------------|


G|------------------|--------------------|
D|-7-777-77-77-9-10-|------------10-9----|
A|------------------|-8-888-88-8------10-|
E|------------------|--------------------|x3

G|------------------|--------------------|
D|-7-777-77-77-9-10-|--------------------|
A|------------------|-8-888-88-888888888-|
E|------------------|--------------------|

Chorus(1.30)

G|--------------------|---------------|
D|--------------------|---------------|
A|-3-3-------5-5------|-3-3--------5~-|
E|------3-3-------5-5-|------3-1-3----|

Verse(1.40)

G|-----9-9-9-7h9---------7-7----|-----9-9-9-7h9--------10-10-7-|
D|-7-7-----------10----------10-|-7-7-----------10-------------|
A|-------------------8-8--------|------------------8-8---------|
E|------------------------------|------------------------------|X2

G|--------------------|
D|--------------------|
A|-3-3------------5-5-|
E|------3-3--1-1------|

G|-----9-9-9-7h9---------7-7----|-----9-9-9-7h9--------10-10-7-|
D|-7-7-----------10----------10-|-7-7-----------10-------------|
A|-------------------8-8--------|------------------8-8---------|
E|------------------------------|------------------------------|X2

G|--------------------|
D|--------------------|
A|-3-3------------5-5-|
E|------3-3--1-1------|

Prechorus(2.30)

G|------------------|--------------------|------------------|--------------------|
D|-7-777-77-77-9-10-|------------10-9----|-7-777-77-77-9-10-|-------10-10-9------|
A|------------------|-8-888-88-8------10-|------------------|-8-888---------10-8-|
E|------------------|--------------------|------------------|--------------------|

G|------------------|--------------------|------------------|-----------------------|
D|-7-777-77-77-9-10-|------------10-9----|-7-777-77-77-9-10-|------------10h12-9----|
A|------------------|-8-888-88-8------10-|------------------|-8-888-88-8---------10-|
E|------------------|--------------------|------------------|-----------------------|

G|------------------|--------------------|------------------|-----/101010101010-|
D|-7-777-77-77-9-10-|------------10-9----|-7-777-77-77-9-10-|-------------------|
A|------------------|-8-888-88-8------10-|------------------|-8-88--------------|
E|------------------|--------------------|------------------|-------------------|

Chorus(3.00)

G|--------------------|------------------------7---7-7-|
D|--------------------|--------------------------------|
A|-3-3-------5-5------|-3-3---------5--5-5-5-5---5-----|
E|------3-3-------5-5-|------3-1-3---------------------|

G|--------------------|--------------------|
D|--------------------|-----3-1------------|
A|-3-3-------5-5------|-3-3-----3-1-----5~-|
E|------3-3-------5-5-|-------------3-1----|

Solo(3.19)

G|--------12---11---------------|   
D|------------------------------|
A|-9h10------9----9---5--5--5-5-|
E|------------------------------|x2

G|-----------7------------|
D|-----9---7------7-------|
A|---9---5------7-------7-|
E|-7----------5-----0-7---|

G|--------12---11---------------|   
D|------------------------------|
A|-9h10------9----9---5--5--5-5-|
E|------------------------------|x2

G|-----------7------------|
D|-----9---7------7-------|
A|---9---5------7-------7-|
E|-7----------5-----0-7---|x3

Intro(3.59)

G|-----9-9-9-7h9---------7-7----|-----9-9-9-7h9--------10-10-7-|
D|-7-7-----------10----------10-|-7-7-----------10-------------|
A|-------------------8-8--------|------------------8-8---------|
E|------------------------------|------------------------------|

Verse(4.09)

G|-----9-9-9-7h9---------7-7----|-----9-9-9-7h9--------10-10-7-|
D|-7-7-----------10----------10-|-7-7-----------10-------------|
A|-------------------8-8--------|------------------8-8---------|
E|------------------------------|------------------------------|X2

G|--------------------|
D|--------------------|
A|-3-3------------5-5-|
E|------3-3--1-1------|

Prechorus(4.24)

G|------------------|--------------------|------------------|-----------------|
D|-7-777-77-77-9-10-|------------10-9----|-7-777-77-77-9-10-|-----------------|
A|------------------|-8-888-88-8------10-|------------------|-8-7-7-5-5-------|
E|------------------|--------------------|------------------|-----------6-5-3-|

G|------------------|--------------------|------------------|------------------------|
D|-7-777-77-77-9-10-|------------10-9----|-7-777-77-77-9-10-|-------------10h12-9----|
A|------------------|-8-888-88-8------10-|------------------|-8--888-88-8---------10-|
E|------------------|--------------------|------------------|------------------------|

G|------------------|--------------------|------------------|-----/101010101010-|
D|-7-777-77-77-9-10-|------------10-9----|-7-777-77-77-9-10-|-------------------|
A|------------------|-8-888-88-8------10-|------------------|-8-88--------------|
E|------------------|--------------------|------------------|-------------------|

Chorus(4.53)

G|--------------------|------------------------7---7-7-|
D|--------------------|--------------------------------|
A|-3-3-------5-5------|-3-3---------5--5-5-5-5---5-----|
E|------3-3-------5-5-|------3-1-3---------------------|

G|--------------------|---------------|
D|--------------------|---------------|
A|-3-3-------5-5------|-3-3--------5~-|
E|------3-3-------5-5-|------3-1-3----|                    

Comments for bass tab — Californication (var.29) (Red Hot Chili Peppers)

Other Californication (var.29) by Red Hot Chili Peppers tabs:

Last viewed Red Hot Chili Peppers tabs: