Red Hot Chili Peppers - Californication (var.154) Guitar tab download free or play online

Guitar tab for Californication (var.154) by Red Hot Chili Peppers free download and read or play online: file .txt, 2.61 kb has 505 views and 0 downloads.

Download guitar tab "Californication (var.154)" (Red Hot Chili Peppers)

Red Hot Chili Peppers Band name
Californication Song name
Guitar tabs Tab type
2.61 kb File size
.TXT File type
505 views
0 downloads
 
Are you robot?

Californication (var.154) guitar tab read and play online

                    Standard Tuning
Tabbed By: xoclipse

I know the spelling is wrong, but it wouldnt let me submit it with that name!

Intro/Verse

E------------------------------------------------------------------------------------------------
B-----------0--1----------------------------0--2-----------------------------------------------------
G---------------------------------------------------0---------------------------------------------
D--------2---------2-0h2p0----------------------------3-----------------------------------------------------
A-----0------------------------3------3-------------------------------------------------------------
E-----------------------------------1------------------------------------------------------------


Fill during intro/verse

Just pick Am

Pre Chorus

The Pre chorus is mostly just Am

Chorus

C, G, Dm, Am

Intro

Fill

Chorus

Solo

E--------9---------------9-------------------------------------------------------------------------
B----10----7br-----10----7br--77--------------------------7v-------------------------------
G---------------------------------------9--6v------6---9-------9--6v-------------------------------
D------------------------------------------------9------------------------------------------------
A------------------------------------------------------------------------------------------------
E-----------------------------------------------------------------------------------------------


E---------9---12---14v--------9--12--16--14---16-16-14------------14------------------------
B---10---------------------10-------------------------------17-14-----17-14--17-14-----
G------------------------------------------------------------------------------------------------
D------------------------------------------------------------------------------------------------
A------------------------------------------------------------------------------------------------
E-----------------------------------------------------------------------------------------------


E---9b-9b--9b--9b--12--9---16--14--12--9--12--9----------------------12--10--9------
B-------------------------------------------------------------12--10-----------10-----------------
G------------------------------------------------------------------------------------------------
D------------------------------------------------------------------------------------------------
A------------------------------------------------------------------------------------------------
E-----------------------------------------------------------------------------------------------


Intro                    

Comments for guitar tab — Californication (var.154) (Red Hot Chili Peppers)

Other Californication (var.154) by Red Hot Chili Peppers tabs:

Last viewed Red Hot Chili Peppers tabs: