Red Hot Chili Peppers - Californication (var.147) Guitar tab download free or play online

Guitar tab for Californication (var.147) by Red Hot Chili Peppers free download and read or play online: file .txt, 3.06 kb has 503 views and 0 downloads.

Download guitar tab "Californication (var.147)" (Red Hot Chili Peppers)

Red Hot Chili Peppers Band name
Californication Song name
Guitar tabs Tab type
3.06 kb File size
.TXT File type
503 views
0 downloads
 
Are you robot?

Californication (var.147) guitar tab read and play online

                    Red Hot Chili Peppers: "Californication"
Tabbed By Mark Reed

INTRO

    Am                       F
e|-------------------------------------------|
B|---------0H1-------------------------------|
G|--------------2------------------0H2-------|  4 times for
D|-----2-----------2P0----------3-------3----|  the intro
A|-0--------------------0----3-------------3-|
E|-------------------------------------------|


Verses

    Am                       F
e|-------------------------------------------|
B|---------0H1-------------------------------|
G|--------------2------------------0H2-------|  twice
D|-----2-----------2P0----------3-------3----|
A|-0--------------------0----3-------------3-|
E|-------------------------------------------|


   Am                      F
e|------------------------------------------|
B|------------------------------------------|
G|----------5-----------4-----------2-------|
D|-------7-----------5-----------3-----3----|
A|----7-----------5-----------3-----------3-|
E|-5-----------3-----------1----------------|


Bridge

   Am                F
e|-0-0-0-0--0-0-0----0-0-0-0--0-0-0-|
B|-1-1-1-1--1-1-1----1-1-1-1--1-1-1-|
G|-2-2-2-2--2-2-2----2-2-2-2--2-2-2-|  6 times
D|-2-2-2-2--2-2-2----3-3-3-3--3-3-3-|
A|-0-0-0-0--0-0-0----3-3-3-3--3-3-3-|
E|----------------------------------|


Chorus

   C                G       F      A
e|-3-3-3-3----------3-3-----1-1----5-5-5-5--|
B|-5-5-5-5----------3-3-----1-1----5-5-5-5--|
G|-5-5-5-5----------4-4-----2-2----6-6-6-6--| 2/4 times
D|-5-5-5-5----------5-5-----3-3----7-7-7-7--|
A|-3-3-3-3----------5-5-----3-3----7-7-7-7--|
E|-3-3-3-3----------3-3-----2-2----5-5-5-5--|
   Dream of Cali - forni - cation

Solo

e|--------------------------------------------------------------------|
B|--10--14--7B--(7)--10--14--7B--(7)----7--7P5-------------5--7B--7P5-|
G|----------------------------------------------6--6--4H6-------------|
D|--------------------------------------------------------------------|
A|--------------------------------------------------------------------|
E|--------------------------------------------------------------------|


e|-------------------------------------------|
B|--10--14--17--19B----10--14--17--19B--(19)-|
G|-------------------------------------------|
D|-------------------------------------------|
A|-------------------------------------------|
E|-------------------------------------------|

e|--------------------------------------9---9---9--9--7-|
B|-22--21--19--17--14--17--12--9--12B--12--12--12-------|
G|------------------------------------------------------|
D|------------------------------------------------------|
A|------------------------------------------------------|
E|------------------------------------------------------|

e|-9--12--9----------12--10---------|
B|-----------12--10----------14--10-|
G|----------------------------------| on the last note start
D|----------------------------------| with the verse picking
A|----------------------------------|
E|----------------------------------|                    

Comments for guitar tab — Californication (var.147) (Red Hot Chili Peppers)

Other Californication (var.147) by Red Hot Chili Peppers tabs:

Last viewed Red Hot Chili Peppers tabs: