Red Hot Chili Peppers - Californication (var.117) Guitar tab download free or play online

Guitar tab for Californication (var.117) by Red Hot Chili Peppers free download and read or play online: file .txt, 4.63 kb has 524 views and 0 downloads.

Download guitar tab "Californication (var.117)" (Red Hot Chili Peppers)

Red Hot Chili Peppers Band name
Californication Song name
Guitar tabs Tab type
4.63 kb File size
.TXT File type
524 views
0 downloads
 
Are you robot?

Californication (var.117) guitar tab read and play online

                    Song: Californication
Artist: Red Hot Chili Peppers
Album: Californication
Track: 6
Track Length: 5 Minutes 20 Seconds
Tabbed By: heres_ur_letter@yahoo.com (Chris Martin)
Tuning: Standard


/ - Slide Up
 - Slide Down
X - Scratch
: - Let Ring
~ - Vibrato
p - Pull Off
^ - Bend Up
^( ) - Bend Up Then Back Down To Original Note

  
Main Riff, (0:00-0:29)
e]---------------------------------------
B]--------0--1:--------------------------
G]--------------------------0--2:--------
D]-----2:-------------------------------- X6
A]--0--------------------3:--------------
E]--------------------1------------------


Verse Riff A, (0:30-0:35)
e]-------0---------1------------1---------1---------  
B]-------1---------0------------1---------3---------
G]-------0---------0---------2----------2-----------
D]-----2-----------0-------3----------0--------------  
A]---3-----------2---------------------------------  
E]-------------3-----------------------------------


Main Riff, (0:36-0:55) Play 4 times.


Riff A, (0:56-1:00) Play once


Verse Chords, (1:01-1:30) Play 6 Times.
e]-0--0-0-0--0-0-0-0-0--0--0-0---0--0-0-0--0-0-0-0-0--0--0-0
B]-1--1-1-1--1-1-1-1-1--1--1-1---1--1-1-1--1-1-1-1-1--1--1-1
G]-2--2-2-2--2-2-2-2-2--2--2-2---2--2-2-2--2-2-2-2-2--2--2-2
D]-2--2-2-2--2-2-2-2-2--2--2-2---3--3-3-3--3-3-3-3-3--3--3-3
A]-0--0-0-0--0-0-0-0-0--0--0-0---0--0-0-0--0-0-0-0-0--0--0-0
E]----------------------------------------------------------


Chorus A, (1:30-1:39) Play 1 Time.
e]-0-0--3-3--1-1--0-0----0-0--3-3--1
B]-1-1--0-0--3-3--1-1----1-1--0-0--3
G]-0-0--0-0--2-2--2-2----0-0--0-0--2 Let this chord ring
D]-2-2--0-0--0-0--2-2----2-2--0-0--0
A]-3-3--2-2-------0-0----3-3--2-2---
E]------3-3-------------------3-3---


Main Riff, (1:40-1:59) Play 4 Times.


Verse Riff A, (2:00-2:05)


Main Riff, (2:05-2:24) Play 4 Times.


Verse Riff A, (2:25-2:29)


Verse Chords, (2:30-2:59) Play 6 Times.       


Chorus B, (2:59-3:18)
e]-0-0--3-3--1-1--0-0----0-0--3-3--1-1--1-1--1-1-1-1--0-0--3-3--1-1--0-0----0-0--3-3--1	
B]-1-1--0-0--3-3--1-1----1-1--0-0--3-3--3-3--3-3-3-3--1-1--0-0--3-3--1-1----1-1--0-0--3
G]-0-0--0-0--2-2--2-2----0-0--0-0--2-2--2-2--2-2-2-2--0-0--0-0--2-2--2-2----0-0--0-0--2 Let this chord ring
D]-2-2--0-0--0-0--2-2----2-2--0-0--0-0--0-0--0-0-0-0--2-2--0-0--0-0--2-2----2-2--0-0--0
A]-3-3--2-2-------0-0----3-3--2-2---------------------3-3--2-2-------0-0----3-3--2-2---
E]------3-3-------------------3-3--------------------------3-3-------------------3-3---

Solo, (3:19-3:59)
e]----5------9--------------------5------9-----------------
B]-------------------7^(7)-----------------------7^(7)-----
G]---------------------------------------------------------
D]---------------------------------------------------------
A]---------------------------------------------------------
E]---------------------------------------------------------
                  
e]----2--2--2--2p0-------------------0--2^(2)--0-----------
B]-------------------2--2------0--2---------------2--------
G]---------------------------------------------------------
D]---------------------------------------------------------
A]---------------------------------------------------------
E]---------------------------------------------------------

e]----5----9----12----14----5----9----12----14^(14)--------
B]---------------------------------------------------------
G]---------------------------------------------------------
D]---------------------------------------------------------
A]---------------------------------------------------------
E]---------------------------------------------------------
     
e]----17--16--14------14-------------------------------------------
B]----------------17------17--14--17--14--14-------14-------14-----
G]----------------------------------------16^(16)--16^(16)--16^(16)
D]-----------------------------------------------------------------
A]-----------------------------------------------------------------
E]-----------------------------------------------------------------
   
e]------------14^(14)----------------------------------------
B]----17--14-----------17--14--17--14----------17--15--14----
G]-------------------------------------16--14--------------14
D]-----------------------------------------------------------
A]-----------------------------------------------------------
E]-----------------------------------------------------------


Main Riff, (3:59-4:18) Play 4 Times.


Verse Riff A, (4:19-4:23)


Verse Chords, (4:24-4:52) Play 6 Times.


Chorus B, (4:53-5:11)


Well thats it, hope it makes sense.

Visit www.directTABS.com for more free tablature!                    

Comments for guitar tab — Californication (var.117) (Red Hot Chili Peppers)

Other Californication (var.117) by Red Hot Chili Peppers tabs:

Last viewed Red Hot Chili Peppers tabs: