Red Hot Chili Peppers - Californication (var.113) Guitar tab download free or play online

Guitar tab for Californication (var.113) by Red Hot Chili Peppers free download and read or play online: file .txt, 1.49 kb has 518 views and 0 downloads.

Download guitar tab "Californication (var.113)" (Red Hot Chili Peppers)

Red Hot Chili Peppers Band name
Californication Song name
Guitar tabs Tab type
1.49 kb File size
.TXT File type
518 views
0 downloads
 
Are you robot?

Californication (var.113) guitar tab read and play online

                    ~-let ring
p-pull off
b-bend

californication - solo



1|------9-----------9------------------------------------------------------|
2|--10----------10---------------------------------------------------------|
3|---------11b---------11b--11--11--11--11p9-----------------9--11b--9-----|
4|--------------------------------------------11--11--9--11-------------11-|
5|-------------------------------------------------------------------------|
6|-------------------------------------------------------------------------|


1|------9--12--14~------9--12--14b14~--17--16--14------14------------------|
2|--10--------------10-----------------------------17------17--14--17--14--|
3|-------------------------------------------------------------------------|
4|-------------------------------------------------------------------------|
5|-------------------------------------------------------------------------|
6|-------------------------------------------------------------------------|


1|------------------------14b--12------12----------------------------------|
2|--14---14---14--17--14-----------14------14----------17--15--14----------|
3|--16b--16b--16b------------------------------16--14--------------14------|
4|-------------------------------------------------------------------------|
5|-------------------------------------------------------------------------|
6|-------------------------------------------------------------------------|

Visit www.directTABS.com for more free tablature!                    

Comments for guitar tab — Californication (var.113) (Red Hot Chili Peppers)

Other Californication (var.113) by Red Hot Chili Peppers tabs:

Last viewed Red Hot Chili Peppers tabs: