Red Hot Chili Peppers - Californication (var.110) Guitar tab download free or play online

Guitar tab for Californication (var.110) by Red Hot Chili Peppers free download and read or play online: file .txt, 2.68 kb has 526 views and 0 downloads.

Download guitar tab "Californication (var.110)" (Red Hot Chili Peppers)

Red Hot Chili Peppers Band name
Californication Song name
Guitar tabs Tab type
2.68 kb File size
.TXT File type
526 views
0 downloads
 
Are you robot?

Californication (var.110) guitar tab read and play online

                    #----------------------------------PLEASE NOTE---------------------------------#
#This file is the author's own work and represents their interpretation of the #
#song. You may only use this file for private study, scholarship, or research. #
#------------------------------------------------------------------------------##

Song: Californication
Artist: Red Hot Chili Peppers
Album: Californication
Tabbed by David Mety (guitarbuster2k)

Intro riff/verse riff
|--------------------------------|
|-----0-1------------------------|
|-----------------------0-2-2-0--|
|---2------2h0-2-0---------------|
|-0-------------------3----------|
|-------------------1------------|

Pre-Chorus (chords)
Am Fmaj

Chorus (chords)
C G Am

Solo

|----9-----------9--------------------------------------------------9---12--14--|
|-10----------10-------------------------------------------------10-------------|
|------11b13-------11b13--11-11-11-9------------9-11-1311-9-------------------|
|------------------------------------11-11-9-11---------------11----------------|
|-------------------------------------------------------------------------------|
|-------------------------------------------------------------------------------|


|----9--12--1614--17-16-14-12-14-12----12----------------12-----16-14-12----12-----------|
|-10---------------------------------14----14--14--14--14----14-----------14----14-12-----|
|-------------------------------------------------------------------------------------14--|
|-----------------------------------------------------------------------------------------|
|-----------------------------------------------------------------------------------------|
|-----------------------------------------------------------------------------------------|


|-----------------|
|-14-17-15-149--|
|-----------------|
|-----------------|
|-----------------|
|-----------------|

And that is all...enjoy.
--------------------------------------------------------------------------------
Legend
------

 h  = hammer-on		 |  = bar
 p  = pull-off		||  = double bar
 b  = bend		||* = repeat start
 r  = bend release	*|| = repeat end
 /  = slide up/down	*|  = double bar (end)
[5] = nat. harmonic	 !  = repeat beat (ј,8th)
<5> = art. harmonic	!!  = repeat beat (16th)
 ~  = vibrato		 %  = repeat measure
 tr = trill		 :  = bar (freetime)
 T  = tap		du  = tremolo bar dip
 TP = trem. picking	 d  = tremolo bar down
 PM = palm muting	 u  = tremolo bar up
 S  = slap		ud  = tremolo bar inverted dip
 P  = pop		 =  = hold (bend or tremolo bar)
--------------------------------------------------------------------------------

Visit www.directTABS.com for more free tablature!                    

Comments for guitar tab — Californication (var.110) (Red Hot Chili Peppers)

Other Californication (var.110) by Red Hot Chili Peppers tabs:

Last viewed Red Hot Chili Peppers tabs: