Red Hot Chili Peppers - Californication (var.109) Guitar tab download free or play online

Guitar tab for Californication (var.109) by Red Hot Chili Peppers free download and read or play online: file .txt, 3.5 kb has 594 views and 0 downloads.

Download guitar tab "Californication (var.109)" (Red Hot Chili Peppers)

Red Hot Chili Peppers Band name
Californication Song name
Guitar tabs Tab type
3.5 kb File size
.TXT File type
594 views
0 downloads
 
Are you robot?

Californication (var.109) guitar tab read and play online

                    INTRO

   Am                             F
e|------------------------------------------------------------|
B|---------0---1----------------------------------------------|
G|---------------------------------------0---2----------------|
D|-----2------------------------------------------------------|
A|-0---------------------------------3------------------------|
E|-------------------------------1----------------------------|


VERSE

    C5                G5                   F         Dm
e|--------------------------------------------------------1----|
B|---------5----------------------------------------------3----|
G|---------------------------4-------------------------2-------|
D|-----5-----5----------------------------------3----0---------|
A|--3---------------------5-----5-------------3----------------|
E|---------------------3-------------------1-------------------|
  If you want....                       ...it's Californication


PRE-CHORUS
(strum)

   Am                            F7M
e|-0------------------------------0---------------------------|
B|-1------------------------------1---------------------------|
G|-2------------------------------2---------------------------|
D|-2------------------------------2---------------------------|
A|-0------------------------------3---------------------------|
E|------------------------------------------------------------|

Pay your surgeon very well...


CHORUS
(strum)

(C            G    F     Am)    (C            G   F  Dm)
Dream of ......



Solo From: "Darzee The good one" 
*This tab has been adapted from the tab's written by F@B 
Subject: r/red_hot_chili_peppers/californication.tab

4/4
  Gtr I
                ~~                  ~~                ~
|----9------------------9----------------------------------|
|-10-----------------10------------------7-7-5--7p5--------|
|-------11b12r=11-----------11b12r=11---------------6-6----|
|----------------------------------------------------------|
|----------------------------------------------------------|
|----------------------------------------------------------|


      ~              ~                ~~              ~~~~~~
|-----------------------------9--12--14-------9--12--14b16r==14----|
|-----5--7b8.5r=7--5-------10--------------10----------------------|
|-4-6----------------6---------------------------------------------|
|------------------------------------------------------------------|
|------------------------------------------------------------------|
|------------------------------------------------------------------|


|-17-16-14----14---------------------------------------------------12--------|
|----------17-----17-14-17---14---14---------14---------14-------------14----|
|---------------------------------16b17.5====16b17.5====16b17.5==============|
|----------------------------------------------------------------------------|
|----------------------------------------------------------------------------|
|----------------------------------------------------------------------------|


                                                  ~~
|------------------------------------------------------|
|-19b20r==19--17------17--------------17--15--14-------|
|-----------------18------18--16--14-------------14----|
|------------------------------------------------------|
|------------------------------------------------------|
|------------------------------------------------------|

Visit www.directTABS.com for more free tablature!                    

Comments for guitar tab — Californication (var.109) (Red Hot Chili Peppers)

Other Californication (var.109) by Red Hot Chili Peppers tabs:

Last viewed Red Hot Chili Peppers tabs: