Red Hot Chili Peppers - Californication (var.96) Guitar tab download free or play online

Guitar tab for Californication (var.96) by Red Hot Chili Peppers free download and read or play online: file .txt, 3.27 kb has 525 views and 1 downloads.

Download guitar tab "Californication (var.96)" (Red Hot Chili Peppers)

Red Hot Chili Peppers Band name
Californication Song name
Guitar tabs Tab type
3.27 kb File size
.TXT File type
525 views
1 downloads
 
Are you robot?

Californication (var.96) guitar tab read and play online

                    Califonication

Song: Califonication
Preformed by: Red Hot Chilli Peppers
Album: Califonication
Tabbed by: !Nick! 
E-mail: braindead_killer_zombie@hotmail.com

Standard tuning: E,A,D,G,B,e


Intro/Verse:

e|----------------------|---------------------------|
B|-------0-1------------|---------------------------|
G|----------------------|------0-2------------------|
D|---2---------(2-0-2-0)|-------------(0--)---------|
A|-0--------------------|---3---------(--3)---------|
E|----------------------|-1-------------------------|


Pre-chorus: (And if you want these kind of dreams it's...)
                               Dm
|------------------------------1---|
|------3-----------------------3---|
|--------------4----------2----2---|
|---3-----------------------0--0---|
|-5--------3----------3------------|
|-------5---------1----------------|


Chorus: 

Am and F^ (Play each chord about 8 times before you switch chord, 
           listen to the cd for how many times you should play them)

And then play this: 
C,G,Dm,Am 
(The first time you play the chorus, just play the chords one time, but the rest of the 
times you play the chorus, play them three times)
And then you finish the chorus with:
C,G,Dm...(Let the Dm ring)

Solo

E|------9---------------------9------------------------------------| 
B|-10--------------------10----------------------------------------| 
G|----------11b-------------------11-b------11-11-11-11-9----------| 
D|-----------------------------------------------------------11-11-| 
A|-----------------------------------------------------------------| 
E|-----------------------------------------------------------------| 

E|------------------------------9---12---14----------9---12---14b16-14--| 
B|-------------------------10-------------------10----------------------| 
G|-------9---11b----9---------------------------------------------------| 
D|--9-11----------------11----------------------------------------------| 
A|----------------------------------------------------------------------| 
E|----------------------------------------------------------------------| 

E|-17-16-14-12-14-12----12----12-----14---14---14----12-|
B|-------------------14----14----14--14---14---14----14-| 
G|------------------------------------------------------| 
D|------------------------------------------------------| 
A|------------------------------------------------------| 
E|------------------------------------------------------| 

E|-14b/16-14-12----12----------12----------|
B|--------------14----14-12-------15-14----| 
G|--------------------------14----------13-| 
D|-----------------------------------------| 
A|-----------------------------------------| 
E|-----------------------------------------| 


And now it's time to put the song together, and here's how to play it:

[Intro/Verse]
[Pre-Chorus]
[Verse]
[Pre-Chorus]
[Chorus]
[Verse]
[Pre-Chorus]
[Verse]
[Pre-Chorus]
[Chorus]
[Solo]
[Verse]
[Pre-Chorus]
[Chorus]


If your not sure how the chords are played, here's how to play them:


    EADGBe
Am (X02210)
F^ (XX3210)
F  (133211)
C  (032010)
G  (320002)
Dm (XX0231)

That's it.
If you have any corrections or comments please send them to me.

Visit www.directTABS.com for more free tablature!                    

Comments for guitar tab — Californication (var.96) (Red Hot Chili Peppers)

Other Californication (var.96) by Red Hot Chili Peppers tabs:

Last viewed Red Hot Chili Peppers tabs: