Red Hot Chili Peppers - Californication (var.17) Bass tab download free or play online

Bass tab for Californication (var.17) by Red Hot Chili Peppers free download and read or play online: file .txt, 2.85 kb has 547 views and 0 downloads.

Download bass tab "Californication (var.17)" (Red Hot Chili Peppers)

Red Hot Chili Peppers Band name
Californication Song name
Bass tabs Tab type
2.85 kb File size
.TXT File type
547 views
0 downloads
 
Are you robot?

Californication (var.17) bass tab read and play online

                    Subject: r/red_hot_chili_peppers/californication.btab
From: StingRay647@aol.com
From: "Brian K. Speck" 
From: Petras 
Date: Mon, 21 Jan 2002 01:19:16 -0500
Date: Tue, 2 Jul 2002 13:13:17 +0100

Intro & Verses & Bridge

G ------9--9--7h9p7-----------7--7-----
D 7--7---------------10-------------10-
A ----------------------8--8-----------
E -------------------------------------

G ------9--9--7h9p7-----------10-10----
D 7--7---------------10-------------10-
A ----------------------8--8-----------
E -------------------------------------

If you can't play that 7h9p7 very fast indeed, you can simply play 7, 
it doesn't really matter.

End of Verse

G ------------------------------------------------
D ------------------------------------------------
A 3--3--3--3--------------------------5--5--5--5--
E ------------3--3--3--3--1--1--1--1--------------

Pre-Chorus
G ----------------------------
D ------------4-5-------------
A 7--7--7--7------3--3--3--3--
E ----------------------------
The end is bit tricky, but in fact Flea never plays this part same 
and same again. Here's some fills he plays:

G ------#------#------
D 5-4-2-#5-4-5-#77754-
A ------#------#------
E ------#------#------

At the very end of the bridge he plays this fill (very fast indeed):
G -----------------
D -----------------
A 12-12-12-12-12-12
E -----------------

Chorus                    *
G ------------------------------------------------
D ------------------------------------------------
A 3--3--3--3--------------5--5--5--5--------------
E ------------3--3--3--3--------------5--5--5--5--

When the chorus ends simply make fade out (I marked that place with *)

Solo
G ------------------------------------------------
D ------------------------------------------------
A 7--7--7--7--7--7--7--7--3--3--3--3--3--3--3--3--
E ------------------------------------------------

G ------7-----------9-----------7-----------5-----
D ---7-----------9-----------7-----------5--------
A 5--------5--7--------7--5--------5--3--------3--
E ------------------------------------------------

That's about all. Here's the structure of the song:
4 x Intro
2 x Verse
End of verse
2 x Bridge
2 x Verse
End of verse
6 x Pre-Chorus
2 x Chorus
2 x Bridge
2 x Verse
End of verse
2 x Bridge
2 x Verse
End of verse
6 x Pre-Chorus
4 x Chorus
2 x Solo - Part I
1 x Solo - Part II
2 x Solo - Part I
3 x Solo - Part II
2 x Bridge
2 x Verse
End of verse
6 x Pre-Chorus
4 x Chorus                    

Comments for bass tab — Californication (var.17) (Red Hot Chili Peppers)

Other Californication (var.17) by Red Hot Chili Peppers tabs:

Last viewed Red Hot Chili Peppers tabs: