Red Hot Chili Peppers - Californication (var.16) Bass tab download free or play online

Bass tab for Californication (var.16) by Red Hot Chili Peppers free download and read or play online: file .txt, 2.88 kb has 554 views and 0 downloads.

Download bass tab "Californication (var.16)" (Red Hot Chili Peppers)

Red Hot Chili Peppers Band name
Californication Song name
Bass tabs Tab type
2.88 kb File size
.TXT File type
554 views
0 downloads
 
Are you robot?

Californication (var.16) bass tab read and play online

                    Date: Sun, 20 Aug 2000 00:13:19 -0400
From: StingRay647@aol.com
Subject: r/red_hot_chili_peppers/californication.btab

I just worked on this the other night and I think its right but might be off 
a note but it sounds really close.

G-----------------------------------------------------------------------
D----------------------14-14-12h/o14p/o12----10-----------------
A--12p/o-0-h/o12---------------------------------------------------
E------------------------------------------------------------------------

Verse
G-----------------------------------------------------------------------
D---------------------------12--12---10-------------------------------
A----8-p/o-0-h/o-8-------------------------------------------------
E------------------------------------------------------------------------

Verse
G-----------------------------------------------------------------------
D---------------------------14-14-12-h/o14p/o12----10-----------
A--12-p/o-0-h/o-12-------------------------------------------------
E------------------------------------------------------------------------

Verse
G--------------------------10--10--------------------------------------
D-------------------------------------12--------------------------------
A----8-p/o-0-h/o-8--------------------------------------------------
E------------------------------------------------------------------------

Verse
G---------5-----------------------------------7------------------------
D-------5------------5----------3---------7---------------------------
A----3------------5----------3--------5-------------------------------
E---------------3----------1-------------------------------------------

Bridge
G----------------------------------------------------------------------
D----------------------------------------------------------------------
A---3--3--3p/o-0----------------5--5--5p/o--0-0-----------------
E---------------------3---3-3-3---------------------------------------

Chorus
G----------------------------------------------------------------------
D----------------------------------------------------------------------
A----3--3--0------0--3--5-----------------------------------------
E---------------3------------------------------------------------------

Thats pretty much close. FLea has a few fills here and there every one will 
have to improvise those or what ever. I haven't figured out the bass part for 
the lead yet but it sounds simple.

enjoy..........Ray                    

Comments for bass tab — Californication (var.16) (Red Hot Chili Peppers)

Other Californication (var.16) by Red Hot Chili Peppers tabs:

Last viewed Red Hot Chili Peppers tabs: