Red Hot Chili Peppers - Californication (var.18) Guitar tab download free or play online

Guitar tab for Californication (var.18) by Red Hot Chili Peppers free download and read or play online: file .txt, 1.07 kb has 689 views and 0 downloads.

Download guitar tab "Californication (var.18)" (Red Hot Chili Peppers)

Red Hot Chili Peppers Band name
Californication Song name
Guitar tabs Tab type
1.07 kb File size
.TXT File type
689 views
0 downloads
 
Are you robot?

Californication (var.18) guitar tab read and play online

                    Standard tuning.
My first tab.
/=slide
^= Bend
*= let ring
----9---------9--------------------------------------9-12-14*------9-12-16-14
--10--------10-------------------------------------10------------10----------
-----12/11*-----12/11*--11-11/9--------9-11^*-9------------------------------
------------------------------11-9-11----------11----------------------------
-----------------------------------------------------------------------------
-----------------------------------------------------------------------------

--17-16-14-12-14-12-------12-------------------12---16-14-12--12------12--------
--------------------14-14----14^-14^-14^*----14--14---------14--12------15-14---
-------------------------------------------------------------------14--------14-
--------------------------------------------------------------------------------
--------------------------------------------------------------------------------
--------------------------------------------------------------------------------


And thats it

Visit www.directTABS.com for more free tablature!                    

Comments for guitar tab — Californication (var.18) (Red Hot Chili Peppers)

Other Californication (var.18) by Red Hot Chili Peppers tabs:

Last viewed Red Hot Chili Peppers tabs: